Rabu, 28 Januari 2009

Beberapa Macam Teknik Dasar Belajar Gitar

by johan somatriani
Tablature/Tab Gitar

Tablature atau tab gitar adalah mudah untuk dibaca dan harus mudah untuk ditulis jika anda ingin mengirimkan (submit) sebuah lagu yang telah anda kerjakan sendiri. Idenya adalah ini:

Mulai dengan 6 baris (atau empat untuk bass). Ini berhubungan dengan senar-senar dari instrumennya. Garis yang paling atas adalah string yang paling tinggi. dan garis yang dibawahnya adalah string yang lebih rendah. Dibawah ini adalah bit kosong dari Tab dengan nama string pada bagian kiri.


E----------------------------------------------------------------
B----------------------------------------------------------------
G----------------------------------------------------------------
D----------------------------------------------------------------
A----------------------------------------------------------------
E----------------------------------------------------------------


Nomor-nomor ditulis pada garis untuk menunjukan pada fret mana dari string
dengan tangan kiri. Bila sebuah nol muncul, artinya mainkan dengan string
terbuka. Seperti notasi standar musik, baca dari kiri ke kanan untuk mengetahui urutan note yang harus dimainkan. Bagian dari Tab berikut mempunyai arti memainkan sederetan note (E F F# G G# A) pada bagian bawah senar E dengan menggerakkan fret secara berurutan, dimulai dengan string terbuka.


E----------------------------------------------------------------
B----------------------------------------------------------------
G----------------------------------------------------------------
D----------------------------------------------------------------
A----------------------------------------------------------------
E---0--1--2--3--4--5---------------------------------------------


OK sampai saat ini ?

Berikut adalah note yang dimainkan secara bersamaan. Jika dua atau lebih note akan dimainkan bersamaan, mereka dituliskan diatas satu sama lainnya, sekali lagi seperti notasi standar.

Contoh berikut kita mempunyai sebuah Kord balok G.

E----3------------------------------------------------------------
B----3------------------------------------------------------------
G----4------------------------------------------------------------
D----5------------------------------------------------------------
A----5------------------------------------------------------------
E----3------------------------------------------------------------


Jadi ini artinya mainkan semua note tersebut secara bersamaan sebagai kord.

Terkadang juga terlihat kord yang sama dituliskan seperti ini :

E--------3--------------------------------------------------------
B-------3---------------------------------------------------------
G------4----------------------------------------------------------
D-----5-----------------------------------------------------------
A----5------------------------------------------------------------
E---3-------------------------------------------------------------


Yang berarti bunyikan dengan bentuk yang sama dimulai dari string terendah, jadi berarti setiap string dibunyikan segera setelah string terakhir, tetapi semua notasi akan berbunyi bersamaan. Dibawah ini ada sebuah contoh lagi dengan bentuk yang sama, tetapi dengan jarak yang sedikit lebih besar - sehingga anda mungkin harus memetik string tersebut secara terpisah daripada membunyikannya secara perlahan.


E------------------3----------------------------------------------
B---------------3-----3--------------------------------------------
G------------4-----------4-----------------------------------------
D---------5-----------------5--------------------------------------
A------5-----------------------5----------------------------------
E---3-----------------------------3--------------------------------


Anda mungkin menanyakan
- Bagaimana saya tahu seberapa cepat atau lambat untuk memainkannya ?
- Apakah semua notasi seharusnya mempunyai panjang yang sama ?


Disinilah perbedaan Tab dari notasi standar. Kebanyakan dari Tab "tidak" akan memberitahukan panjangnya note. Biasanya itu tergantung dari anda untuk mendengarkan lagu tersebut untuk mendapatkan iramanya.

Bagaimanapun - jangan kecewa. Tab harus bisa memberikan indikasi dari waktu tersebut. Pada contoh di atas semua note dipisahkan dengan jarak yang sama sehingga anda bisa membuat asumsi bahwa note tersebut mempunyai jarak yang sama (mungkin semua seperdelapan note atau seperempat) tapi ini tidak selamanya benar - itu tergantung dari siapa yang menuliskan Tab tersebut.

Sebagai aturan umum, jarak dari note pada Tab seharusnya memberitahukan anda note mana yang panjang dan mana yang pendek dan yang cepat, tapi biasanya tidak akan memberitahukan anda jika sebuah note adalah sebuah triplet atau lainnya yang seperti itu. Sekali lagi, ini akan sangat tergantung dengan siapa yang menuliskan Tab tersebut.

Sebagai contoh, ini adalah beberapa note dari Lagu Nasional Amerika dalam Tab. Anda tentu dapat melihat jelas bahwa perbedaan jarak tergantung dari panjang note.

E-----------------------0--------4--2-0--------------------------
B---0--------------0---------------------------------0-----------
G------1------1----------------------------1----3----------------
D--------2-------------------------------------------------------
A----------------------------------------------------------------
E----------------------------------------------------------------


Biasanya akan lebih mudah untuk memainkan Tab dari lagu yang sudah anda kenal baik daripada lagu yang belum pernah anda dengar karena akan lebih terbiasa dengan irama dari lagu yang sudah dikenal.

8 komentar:

  1. terimakasih atas pengetahuannya,...

    BalasHapus
  2. bang , ngapalin kord gitar yang gampang gimana ? aku bingung . sama kalo metik gitar engga pas .. gimana ya ??

    BalasHapus
  3. eh bang , follow back aku ya ..

    BalasHapus
  4. follow aku yaa ....maksiihh

    BalasHapus
  5. hoho.... ada yang lebih spesifik gg,,, apa maksud dri string n arti" dri tab itu..?? exe:
    hammer, pull truss tanda" seperti / ~/" n lainnya...

    BalasHapus
  6. nice info...
    untuk peminat pelajaran gitar dari pemula sampai mahir, silahkan kunjungi juga www.gitarzoom.blogspot.com
    trims

    BalasHapus
  7. alhamdulillah dapat info yang menarik... Thenks Gan... mampir ke http://lesgitarmalang.blogspot.com. ditunggu ya...

    BalasHapus